0
SECTION
2
HEADER
9
$INSUNITS
70
4
0
ENDSEC
0
SECTION
2
TABLES
0
TABLE
2
LTYPE
0
LTYPE
72
65
70
64
2
CONTINUOUS
3
______
73
0
40
0
0
ENDTAB
0
TABLE
2
LAYER
0
ENDTAB
0
ENDSEC
0
SECTION
2
ENTITIES
0
LINE
8
0
10
159
20
-161.5
11
159
21
-127.5
0
LINE
8
0
10
161
20
-125.5
11
175
21
-125.5
0
LINE
8
0
10
177
20
-123.5
11
177
21
-122.5
0
LINE
8
0
10
179
20
-120.5
11
193
21
-120.5
0
LINE
8
0
10
195
20
-118.5
11
195
21
-112.5
0
LINE
8
0
10
197
20
-110.5
11
211
21
-110.5
0
LINE
8
0
10
213
20
-108.5
11
213
21
-105.5
0
LINE
8
0
10
215
20
-103.5
11
233
21
-103.5
0
LINE
8
0
10
235
20
-105.5
11
235
21
-108.5
0
LINE
8
0
10
237
20
-110.5
11
288.597893
21
-110.5
0
LINE
8
0
10
290.5978919
20
-112.502106
11
290.5272107
21
-179.6281605
0
LINE
8
0
10
290.2592626
20
-180.6260545
11
281.5266476
21
-195.7513873
0
LINE
8
0
10
278.7945968
20
-196.4834381
11
263.4291532
21
-187.612195
0
LINE
8
0
10
262.957784
20
-187.4153732
11
245.1085996
21
-182.5235891
0
LINE
8
0
10
244.5751124
20
-182.4524676
11
225.248676
21
-182.4993962
0
LINE
8
0
10
224.7587484
20
-182.4396871
11
197.2388599
21
-175.559715
0
LINE
8
0
10
196.7537887
20
-175.5
11
179
21
-175.5
0
LINE
8
0
10
177
20
-173.5
11
177
21
-165.5
0
LINE
8
0
10
175
20
-163.5
11
161
21
-163.5
0
ARC
8
0
10
161
20
-127.5
40
2
50
90
51
180
0
ARC
8
0
10
175
20
-123.5
40
2
50
270
51
0
0
ARC
8
0
10
179
20
-122.5
40
2
50
90
51
180
0
ARC
8
0
10
193
20
-118.5
40
2
50
270
51
0
0
ARC
8
0
10
197
20
-112.5
40
2
50
90
51
180
0
ARC
8
0
10
211
20
-108.5
40
2
50
270
51
0
0
ARC
8
0
10
215
20
-105.5
40
2
50
90
51
180
0
ARC
8
0
10
233
20
-105.5
40
2
50
0
51
90
0
ARC
8
0
10
237
20
-108.5
40
2
50
180
51
270
0
ARC
8
0
10
288.597893
20
-112.5
40
2
50
359.9396675
51
90
0
ARC
8
0
10
288.5272118
20
-179.6260545
40
2
50
329.9999999
51
359.9396675
0
ARC
8
0
10
279.7945968
20
-194.7513873
40
2
50
239.9999999
51
329.9999999
0
ARC
8
0
10
262.4291532
20
-189.3442458
40
2
50
59.9999999
51
74.6737223
0
ARC
8
0
10
244.5799688
20
-184.4524617
40
2
50
74.6737223
51
90.1391257
0
ARC
8
0
10
225.2438196
20
-180.4994021
40
2
50
255.9637579
51
270.1391257
0
ARC
8
0
10
196.7537887
20
-177.5
40
2
50
75.9637579
51
90
0
ARC
8
0
10
179
20
-173.5
40
2
50
180
51
270
0
ARC
8
0
10
175
20
-165.5
40
2
50
0
51
90
0
ARC
8
0
10
161
20
-161.5
40
2
50
180
51
270
0
ENDSEC
0
EOF