0
SECTION
2
HEADER
9
$INSUNITS
70
4
0
ENDSEC
0
SECTION
2
TABLES
0
TABLE
2
LTYPE
0
LTYPE
72
65
70
64
2
CONTINUOUS
3
______
73
0
40
0
0
ENDTAB
0
TABLE
2
LAYER
0
ENDTAB
0
ENDSEC
0
SECTION
2
ENTITIES
0
LINE
8
0
10
161
20
-161.5
11
179
21
-161.5
0
LINE
8
0
10
161
20
-161.5
11
161
21
-127.5
0
LINE
8
0
10
179
20
-127.5
11
161
21
-127.5
0
LINE
8
0
10
179
20
-173.5
11
197
21
-173.5
0
LINE
8
0
10
197
20
-173.5
11
197
21
-163.5
0
LINE
8
0
10
179
20
-161.5
11
179
21
-173.5
0
LINE
8
0
10
197
20
-122.5
11
179
21
-122.5
0
LINE
8
0
10
179
20
-122.5
11
179
21
-127.5
0
LINE
8
0
10
197
20
-163.5
11
215
21
-163.5
0
LINE
8
0
10
215
20
-163.5
11
215
21
-156.5
0
LINE
8
0
10
215
20
-112.5
11
197
21
-112.5
0
LINE
8
0
10
197
20
-112.5
11
197
21
-122.5
0
LINE
8
0
10
215
20
-156.5
11
233
21
-156.5
0
LINE
8
0
10
233
20
-112.5
11
233
21
-105.5
0
LINE
8
0
10
233
20
-105.5
11
215
21
-105.5
0
LINE
8
0
10
215
20
-105.5
11
215
21
-112.5
0
LINE
8
0
10
245
20
-163.5
11
269
21
-163.5
0
LINE
8
0
10
233
20
-156.5
11
233
21
-163.5
0
LINE
8
0
10
233
20
-112.5
11
269
21
-112.5
0
LINE
8
0
10
269
20
-163.5
11
269
21
-112.5
0
LINE
8
0
10
227
20
-180.5
11
245
21
-180.5
0
LINE
8
0
10
245
20
-180.5
11
245
21
-163.5
0
LINE
8
0
10
233
20
-163.5
11
227
21
-163.5
0
LINE
8
0
10
227
20
-163.5
11
227
21
-180.5
0
LINE
8
0
10
246.3302486
20
-180.7787756
11
263.7169135
21
-185.4375184
0
LINE
8
0
10
263.7169135
20
-185.4375184
11
268.1168372
21
-169.0167794
0
LINE
8
0
10
268.1168372
20
-169.0167794
11
250.7301723
21
-164.3580366
0
LINE
8
0
10
250.7301723
20
-164.3580366
11
246.3302486
21
-180.7787756
0
LINE
8
0
10
264.2061396
20
-185.7513873
11
279.7945968
21
-194.7513873
0
LINE
8
0
10
279.7945968
20
-194.7513873
11
288.2945968
21
-180.0289555
0
LINE
8
0
10
288.2945968
20
-180.0289555
11
272.7061396
21
-171.0289555
0
LINE
8
0
10
272.7061396
20
-171.0289555
11
264.2061396
21
-185.7513873
0
ENDSEC
0
EOF